Super Mario Land (GB)

"Easton Kingdom"
Composed by:Hirokazu "Hip" Tanaka
Guitar tab by:Deezer
Last modified:2014-04-17
Printable version
« Super Mario Land tab list
#----------------------------------PLEASE NOTE--------------------------------#
#This file is the author's own work and represents their interpretation of the#
#song. You may only use this file for private study, scholarship, or research.#
#-----------------------------------------------------------------------------#

Super Mario Land (Game Boy)
"Easton Kingdom"

Originally composed by: Hirokazu "Hip" Tanaka
------------------------------------------------------------------------------
Tabbed by: Deezer (deezer AT videogamejam DOT com)
For http://www.videogamejam.com
------------------------------------------------------------------------------

Legend:
  h = hammer-on
  p = pull-off

Standard tuning: (low to high) EADGBe


--3-----------------------|-----------------------|
-------7--4h7p4-----------|-----------------------|
----------------7---------|------3----3-----------|
-----------------------5--|--6-----6-----5--------|
--------------------------|-----------------------|
--------------------------|-----------------------|

--3-----------------------|--------------------------|
-------7--4h7p4-----------|--------------------------|
----------------7---------|------3-5--3h5p3----------|
-----------------------5--|--6--------------5--------|
--------------------------|--------------------------|
--------------------------|--------------------------|

--3-----------------------|-----------------------|
-------7--4h7p4-----------|-----------------------|
----------------7---------|------3----3-----------|
-----------------------5--|--6-----6-----5--------|
--------------------------|-----------------------|
--------------------------|-----------------------|

--3-----------------------|--------------------------|
-------7--4h7p4-----------|--------------------------|
----------------7---------|------3-5--3h5p3----------|
-----------------------5--|--6--------------5--------|
--------------------------|--------------------------|
--------------------------|--------------------------|

----------------------|----------------------|
----------------------|--6--------4------6p4-|
-----------------5----|----------------------|
--6-------------------|----------------------|
----------------------|----------------------|

--------------------|-------------------|
--3-----------------|-------------------|
--------------------|-------------------|
--------------------|-------------------|
--------------------|-------------------|
--------------------|-------------------|

Repeat from the beginning.


Last modified: 2014-04-17